free web hosting | website hosting | Business Hosting | Free Website Submission | shopping cart | php hosting



Transcribed by Mike McManus

Rumble by Link Wray (Rumble: The Best of Link Wray)

One of the most famous instrumentals of all time, Rumble is also very easy 
to play. This is based off the original '58 version.

Structure: Verse (x2), Solo, Verse, Bridge, Verse

Notes: Dm Dm E  Dm Dm E  Dm Dm A  Dm Dm E  Dm Dm B7

Verse:
  Dm        E                             A
E 0----0----0----0----0----0----0----0----0----0----0----0----
B 3----3----0----3----3----0----3----3----2----3----3----0----
G 2----2----1----2----2----1----2----2----2----2----2----1----
D 0----0----2----0----0----2----0----0----2----0----0----2----
A 0----0----2----0----0----2----0----0----0----0----0----2----
E 0----0----0----0----0----0----0----0----0----0----0----0----

                 Solo
            B7
E 0----0----2----3--0--------------------------------
B 3----3----0----------3--0--------------------------
G 2----2----2----------------2--0--------------------
D 0----0----1----------------------2--0--------------
A 0----0----2----------------------------2--0--------
E 0----0----0----------------------------------3b--0-

Bridge:
                  (repeat this note 4 measures)
E 0----0----0----11/12--
B 3----3----0----11/12--
G 2----2----1----12/13--
D 0----0----2-----------
A 0----0----2-----------
E 0----0----0-----------

b - bend note





Home | Links | Photos | Discography | Real Audio | Chart Positions | Tabs | Rare Items | Guestbook