free web hosting | website hosting | Business WebSite Hosting | Free Website Submission | shopping cart | php hosting



Transcribed by Mike Mcmanus
Mr. Guitar by Link Wray (Mr. Guitar/Norton Records)
Another great instrumental by Link Wray. My fav to play.

Structure: intro, verse (2x), bridge, verse (2x), bridge #2, verse (1x), 
endtro

Intro: (jangly) (2x)             Endtro: (jangly) (2x)

            (each chord is one bar's worth)              Last note
   C    A#   G#   G                 C    A#   G#   G         C
E -8----6----4----3----          E -8----6----4----3----   --8--
B -8----6----4----3----          B -8----6----4----3----   --8--
G -9----7----5----4----          G -9----7----5----4----   --9--
D -10---8----6----5----          D -10---8----6----5----   --10-
A ---------------------          A ---------------------   -----
E ---------------------          E ---------------------   -----

Verse: (staccato) Order: 1,2,1,3,1

**Part One (4x)(2x)**           **Part Two (2x)**
E --------------------------    --------------------------
B --------------------------    --------------------------
G --------------------------    ----2-2--3--5--5-5--3--2--
D ----2-2--3--5--5-5--3--2--    -3------------------------
A -3------------------------    --------------------------
E --------------------------    --------------------------

      **Part Three**
E --------------------------
B --------------------------
G --------------------------
D ----8--5--------6--3------
A -6--------6--4--------4---
E --------------------------

Bridge#1: (all muted) 1,2,1,3,1

**Part One** (8x)(4x) **Part Two** (4x)
E ------------------  ------------------
B ------------------  ------------------
G ------------------  ------------------
D ------------------  -3-3-3-3-3-3-1-1--
A -3-3-3-3-3-3-1-1--  ------------------
E ------------------  ------------------

**Part Three** (1x)
E --------------------------------
B --------------------------------
G -6-6-6-6-6-6-6-6-4-4-4-4-4-4-4--
D --------------------------------
A --------------------------------
E --------------------------------


Bridge#2 (just like intro/endtro)
(2x)
(play each note one at a time)
   C    A#   G#   G
E -8----6----4----3----
B -8----6----4----3----
G -9----7----5----4----
D -10---8----6----5----
A ---------------------
E ---------------------



        





Home | Links | Photos | Discography | Real Audio | Chart Positions | Tabs | Rare Items | Tour Schedule | Guestbook